Admin

Nunca Mais Voltar - TNT

  • Codes
  • 0
  • 8
  • 0
Tom: G
De: Charles Master / Luis Henrique Tchê Gomes 


Intro: G  Cm7 G  Cm7  Am  C  Am  G  Am C  G

E|-----------------------------|---------------------------|
B|-----------------------------|-------------------------15|
G|-14^14-12-14^---14^12----14^-|-14^14-12-14---^14-12------|
D|----------------------13-----|----------------------13---|
A|-----------------------------|---------------------------|
E|-----------------------------|---------------------------|

E|-------------------------------------------------------------------|
B|-------------------------------15---15-----------------------------|
G|-------12-14-14-14-14-12-14-14^--14^--14-12-14-14-14-14-14-12----12|
D|-12-14--------------------------------------------------------14---|
A|-------------------------------------------------------------------|
E|-------------------------------------------------------------------|

E|--------------------------------12---12---------------------15|
B|---------------------------------------------------------15---|
G|-------12-14-14-14-12-14-14-14^---14^--14^-14-12--12-14^------|
D|-12-14------------------------------------------14------------|
A|--------------------------------------------------------------|
E|--------------------------------------------------------------|


G
Tô aí há horas 
Bm7
Eu vou embora 
         C
Hora de me mandar 
         G
Aqui tá devagar 

G
Tava cansado 
Bm7
Da mesma história 
          C
Aqui não tá legal 
          G
Aqui não tá pra mim 

C
Não vou mais voltar 
                   G
Pra aquele lugar 
C
Não vou mais voltar 
                   G
Pra aquele lugar 

Am         Bm
Não me pergunte 
     C        D
Não tenho resposta 
Am         Bm
Não me procure 
     C        D
Não peça que volte 

G  Cm7  G  Cm7

G
Não resta nada 
Bm7
Olhando a estrada 
         C
Eu resolvi pensar 
         G
E nunca mais voltar 

G
Não fique triste 
Bm7
Sei que numa dessas 
         C
Podemos se encontrar 
              G
O posso lhe asegurar 

C
Não vou mais voltar 
                  G
Pra aquele lugar 
C
Não vou mais voltar 
                  G
Pra aquele lugar 

Am         Bm
Não me pergunte 
     C        D
Não tenho resposta 
Am         Bm
Não me procure 
     C        D
Não peça que volte 

G  Cm7 G  Cm7  Am  C  Am  G  Am C  G

C
Não vou mais voltar 
                  G
Pra aquele lugar 
C
Não vou mais voltar 
                  G
Pra aquele lugar 

Am         Bm
Não me pergunte 
     C        D
Não tenho resposta 
Am         Bm
Não me procure 
     C        D
Não peça que volte 

(G  Cm7 G  Cm7)

Related posts